Nev - Benmişim - TAB

  • Konbuyu başlatan kaprisli
kaprisli

kaprisli

Yeni Üye
Üye
İntro:
E/------------------------------------------------------------
B/-----5-------5--------------------5-------5-----------------
G/-0-2---2-0-2---2---5-4-2-0----0-2---2-0-2---2--5-4-2-0------
D/------------------------------------------------------------
A/------------------------------------------------------------
E/------------------------------------------------------------


Solo:
E/------------------------------------------------------------
B/-----5-------5--------------------5-------5-----------------
G/-0-2---2-0-2---2---5-4-2-0----0-2---2-0-2---2--5-4-2-0------
D/------------------------------------------------------------
A/------------------------------------------------------------
E/------------------------------------------------------------


E/------------------------------------------------------------
B/-8h10h8h-5h6h5h---------------------------------------------
G/---------------7-5-4-5h6h5h-4-------------------------------
D/-----------------------------7-5----------------------------
A/--------------------------------7-6-5-3-2---------------3---
E/-----------------------------------------5-3--3-5-3-5-3---5-


E/-----8-------8-------8----------------------8-10h12h10h-----
B/-5-6---6-5-6---6-5-6---6-5----5-6-5-8-5-6-5-----------------
G/------------------------------------------------------------
D/------------------------------------------------------------
A/------------------------------------------------------------
E/------------------------------------------------------------

AAAAAAAAAAaaaaaaaAAAAAAaaaaa...

E/------------------------------------------------------------
B/------------------------------------------------------------
G/--9h10h9h-7-9-5-7-5---7-5-----------------------------------
D/-------------------------7-5--------------------------------
A/----------------------------7-6-5-3---3-5-3-5---------------
E/------------------------------------------------------------


E/------------------------------------------------------------
B/------------------------------------------------------------
G/-4-5-4------------------------------------------------------
D/------7-5---------------------------------------------------
A/---------7-6-5-3-2------------------------------------------
B/------------------5-3-5-3-----------------------------------
 
Konuyu Başlatan Benzer Konular Forum Cevaplar
kaprisli Akor-Tab-Nota 0
kaprisli Akor-Tab-Nota 1
kaprisli Akor-Tab-Nota 0
kaprisli Akor-Tab-Nota 0
kaprisli Akor-Tab-Nota 0
kaprisli Akor-Tab-Nota 0
kaprisli Akor-Tab-Nota 0
kaprisli Akor-Tab-Nota 0

Benzer Konular


Üst