Teoman - Rüzgar Gülü - TAB (versiyon 1) melişlerim

kaprisli

kaprisli

Yeni Üye
Üye
rüzgar gülü tab teoman rüzgar gülü tab
E--------------1-0----------------------|
B---------1-----------------------------|
G---2---2---3------2-0------------------| x2
D----------------------3--2h3p2h3--2~---|
A---------------------------------------|
E---------------------------------------|

E---------------------|--------------------------
B----------8/11--10---|------------------8-11~~-|
G---------------------|-------------------------|
D---------------------|-------------------------|
A---------------------|-------------------------|
E---------------------|-------------------------|
..konuşmaya başladım.Dedim benim kadar yalnızsan,


E--------------------|-----------------------|
B--------------10~~--|------------------10~~-|
G--------------------|---------------12------|
D--------------------|-----------------------|
A--------------------|-----------------------|
E--------------------|-----------------------|
tek gecelik bir aşksan,omuzlarına abanan bir..


E-------------------------------------------|
B---------------------6-5-6-5-8-5---6-5-6~--|
D-------------------------------------------|
G-------------------------------------------|
A-------------------------------------------|
E-------------------------------------------|
Hiç ölümü düşündün mü?

SOLO (x2)
E--------------------------------------------------|
B--------------------------------------------------|
G---10p9-10--------9h10-9-7---9-7-9--------7-9-10--|
D-----------7~----------------------5~-------------|
A--------------------------------------------------|
E--------------------------------------------------|

E-----------------------------|----------------------|
B-8/13-11-10-8--10h11-10-8-10-|-10/11-8h10-10/11-8h10|
G-----------------------------|----------------------|
D-----------------------------|----------------------|
A-----------------------------|----------------------|
E-----------------------------|----------------------|

/ = Slide up
~ = Titreştir
h = Hammer-on
p = Pull-off
 
SadmiN

SadmiN

♥ Evli Mutlu Çocuklu ♥
Yönetici
Aynı konudan birden fazla aynı başlıkla olmasından dolayı başlık güncellemesi yapılmıştır.
 
Konuyu Başlatan Benzer Konular Forum Cevaplar Tarih
..αѕi_мєℓєk.. Akor-Tab-Nota 0
kaprisli Akor-Tab-Nota 0
kaprisli Akor-Tab-Nota 0
kaprisli Akor-Tab-Nota 0
kaprisli Akor-Tab-Nota 0
kaprisli Akor-Tab-Nota 0
kaprisli Akor-Tab-Nota 0
kaprisli Akor-Tab-Nota 0

Benzer Konular


Üst